ISO-10303-21;
HEADER;
FILE_DESCRIPTION (( 'STEP AP203' ),
    '1' );
FILE_NAME ('BK7-LPBSC-25.4-860.STEP',
    '2020-12-22T03:15:12',
    ( '' ),
    ( '' ),
    'SwSTEP 2.0',
    'SolidWorks 2020',
    '' );
FILE_SCHEMA (( 'CONFIG_CONTROL_DESIGN' ));
ENDSEC;

DATA;
#1 = DATE_TIME_ROLE ( 'creation_date' ) ;
#2 = VECTOR ( 'NONE', #62, 1000.000000000000000 ) ;
#3 = ORIENTED_EDGE ( 'NONE', *, *, #207, .T. ) ;
#4 = CC_DESIGN_SECURITY_CLASSIFICATION ( #9, ( #17 ) ) ;
#5 = DIRECTION ( 'NONE',  ( 0.000000000000000000, 1.000000000000000000, 0.000000000000000000 ) ) ;
#6 = EDGE_LOOP ( 'NONE', ( #128, #87, #295, #239 ) ) ;
#7 = ORIENTED_EDGE ( 'NONE', *, *, #144, .T. ) ;
#8 = DIRECTION ( 'NONE',  ( 0.000000000000000000, 0.000000000000000000, 1.000000000000000000 ) ) ;
#9 = SECURITY_CLASSIFICATION ( '', '', #316 ) ;
#10 = EDGE_CURVE ( 'NONE', #237, #130, #86, .T. ) ;
#11 = PLANE ( 'NONE',  #36 ) ;
#12 =( LENGTH_UNIT ( ) NAMED_UNIT ( * ) SI_UNIT ( .MILLI., .METRE. ) );
#13 = VECTOR ( 'NONE', #270, 1000.000000000000000 ) ;
#14 = APPROVAL ( #206, 'UNSPECIFIED' ) ;
#15 = DIRECTION ( 'NONE',  ( -0.000000000000000000, -0.000000000000000000, -1.000000000000000000 ) ) ;
#16 = DIRECTION ( 'NONE',  ( -2.220446049250312588E-16, 1.000000000000000000, 0.000000000000000000 ) ) ;
#17 = PRODUCT_DEFINITION_FORMATION_WITH_SPECIFIED_SOURCE ( 'ANY', '', #263, .NOT_KNOWN. ) ;
#18 = LINE ( 'NONE', #276, #233 ) ;
#19 = DIRECTION ( 'NONE',  ( 0.000000000000000000, 0.000000000000000000, 1.000000000000000000 ) ) ;
#20 = COORDINATED_UNIVERSAL_TIME_OFFSET ( 8, 0, .AHEAD. ) ;
#21 = CARTESIAN_POINT ( 'NONE',  ( 12.69999999999999574, 12.69999999999999574, -12.69999999999999929 ) ) ;
#22 = EDGE_CURVE ( 'NONE', #200, #237, #45, .T. ) ;
#23 = APPROVAL_DATE_TIME ( #122, #319 ) ;
#24 = FACE_OUTER_BOUND ( 'NONE', #151, .T. ) ;
#25 = COORDINATED_UNIVERSAL_TIME_OFFSET ( 8, 0, .AHEAD. ) ;
#26 = CARTESIAN_POINT ( 'NONE',  ( -12.69999999999999574, -12.69999999999999396, 12.69999999999999929 ) ) ;
#27 = CC_DESIGN_PERSON_AND_ORGANIZATION_ASSIGNMENT ( #124, #209, ( #107 ) ) ;
#28 = ORIENTED_EDGE ( 'NONE', *, *, #240, .F. ) ;
#29 = VECTOR ( 'NONE', #235, 1000.000000000000000 ) ;
#30 = DIRECTION ( 'NONE',  ( -2.220446049250312588E-16, 1.000000000000000000, 0.000000000000000000 ) ) ;
#31 = LINE ( 'NONE', #186, #271 ) ;
#32 = DIRECTION ( 'NONE',  ( -1.000000000000000000, 0.000000000000000000, 0.000000000000000000 ) ) ;
#33 = ORIENTED_EDGE ( 'NONE', *, *, #118, .F. ) ;
#34 = PLANE ( 'NONE',  #54 ) ;
#35 = DIRECTION ( 'NONE',  ( 0.000000000000000000, 0.000000000000000000, 1.000000000000000000 ) ) ;
#36 = AXIS2_PLACEMENT_3D ( 'NONE', #191, #199, #16 ) ;
#37 = CARTESIAN_POINT ( 'NONE',  ( 12.69999999999999929, 12.69999999999999929, -12.69999999999999929 ) ) ;
#38 = FACE_OUTER_BOUND ( 'NONE', #116, .T. ) ;
#39 = LINE ( 'NONE', #37, #140 ) ;
#40 = CARTESIAN_POINT ( 'NONE',  ( -12.69999999999999751, -12.69999999999999929, -12.69999999999999929 ) ) ;
#41 = DIRECTION ( 'NONE',  ( 0.000000000000000000, 0.000000000000000000, -1.000000000000000000 ) ) ;
#42 = APPROVAL_DATE_TIME ( #204, #141 ) ;
#43 = CARTESIAN_POINT ( 'NONE',  ( 12.69999999999999929, 12.69999999999999929, 12.69999999999999929 ) ) ;
#44 = PERSON_AND_ORGANIZATION_ROLE ( 'classification_officer' ) ;
#45 = LINE ( 'NONE', #65, #311 ) ;
#46 = SHAPE_DEFINITION_REPRESENTATION ( #317, #98 ) ;
#47 = CARTESIAN_POINT ( 'NONE',  ( 12.69999999999999929, 12.69999999999999929, -12.69999999999999929 ) ) ;
#48 = VERTEX_POINT ( 'NONE', #21 ) ;
#49 = PLANE ( 'NONE',  #169 ) ;
#50 = ORIENTED_EDGE ( 'NONE', *, *, #10, .T. ) ;
#51 = LINE ( 'NONE', #127, #29 ) ;
#52 = ORIENTED_EDGE ( 'NONE', *, *, #85, .F. ) ;
#53 = DIRECTION ( 'NONE',  ( 0.7071067811865475727, -0.7071067811865475727, 0.000000000000000000 ) ) ;
#54 = AXIS2_PLACEMENT_3D ( 'NONE', #242, #35, #293 ) ;
#55 = ORIENTED_EDGE ( 'NONE', *, *, #104, .F. ) ;
#56 = ORIENTED_EDGE ( 'NONE', *, *, #118, .T. ) ;
#57 = LOCAL_TIME ( 11, 15, 12.00000000000000000, #150 ) ;
#58 = CARTESIAN_POINT ( 'NONE',  ( -12.69999999999999574, -12.69999999999999396, 12.69999999999999929 ) ) ;
#59 = ADVANCED_FACE ( 'NONE', ( #250 ), #198, .F. ) ;
#60 = VECTOR ( 'NONE', #267, 999.9999999999998863 ) ;
#61 = ADVANCED_FACE ( 'NONE', ( #24 ), #91, .F. ) ;
#62 = DIRECTION ( 'NONE',  ( 1.000000000000000000, -2.220446049250312588E-16, 0.000000000000000000 ) ) ;
#63 = DIRECTION ( 'NONE',  ( -0.7071067811865475727, -0.7071067811865475727, 0.000000000000000000 ) ) ;
#64 = ORIENTED_EDGE ( 'NONE', *, *, #113, .T. ) ;
#65 = CARTESIAN_POINT ( 'NONE',  ( -12.69999999999999751, -12.69999999999999929, 12.69999999999999929 ) ) ;
#66 = COORDINATED_UNIVERSAL_TIME_OFFSET ( 8, 0, .AHEAD. ) ;
#67 = CARTESIAN_POINT ( 'NONE',  ( 12.69999999999999574, 12.69999999999999574, -12.69999999999999929 ) ) ;
#68 = CALENDAR_DATE ( 2020, 22, 12 ) ;
#69 = EDGE_CURVE ( 'NONE', #130, #132, #292, .T. ) ;
#70 = FACE_OUTER_BOUND ( 'NONE', #214, .T. ) ;
#71 = UNCERTAINTY_MEASURE_WITH_UNIT (LENGTH_MEASURE( 1.000000000000000082E-05 ), #12, 'distance_accuracy_value', 'NONE');
#72 = PERSON_AND_ORGANIZATION ( #145, #77 ) ;
#73 = CC_DESIGN_DATE_AND_TIME_ASSIGNMENT ( #179, #248, ( #9 ) ) ;
#74 = PLANE ( 'NONE',  #272 ) ;
#75 = APPROVAL_ROLE ( '' ) ;
#76 = ORIENTED_EDGE ( 'NONE', *, *, #153, .T. ) ;
#77 = ORGANIZATION ( 'UNSPECIFIED', 'UNSPECIFIED', '' ) ;
#78 = CARTESIAN_POINT ( 'NONE',  ( -12.69999999999999751, -12.69999999999999929, 12.69999999999999929 ) ) ;
#79 = PLANE ( 'NONE',  #84 ) ;
#80 = VERTEX_POINT ( 'NONE', #321 ) ;
#81 = AXIS2_PLACEMENT_3D ( 'NONE', #114, #222, #19 ) ;
#82 = CARTESIAN_POINT ( 'NONE',  ( 12.69999999999999929, 12.69999999999999929, 12.69999999999999929 ) ) ;
#83 = ORIENTED_EDGE ( 'NONE', *, *, #144, .F. ) ;
#84 = AXIS2_PLACEMENT_3D ( 'NONE', #303, #53, #279 ) ;
#85 = EDGE_CURVE ( 'NONE', #132, #286, #39, .T. ) ;
#86 = LINE ( 'NONE', #297, #163 ) ;
#87 = ORIENTED_EDGE ( 'NONE', *, *, #207, .F. ) ;
#88 = PERSON_AND_ORGANIZATION_ROLE ( 'design_supplier' ) ;
#89 = CARTESIAN_POINT ( 'NONE',  ( 0.000000000000000000, 0.000000000000000000, -12.69999999999999929 ) ) ;
#90 = APPROVAL_ROLE ( '' ) ;
#91 = PLANE ( 'NONE',  #81 ) ;
#92 = CALENDAR_DATE ( 2020, 22, 12 ) ;
#93 = VERTEX_POINT ( 'NONE', #175 ) ;
#94 = CC_DESIGN_DATE_AND_TIME_ASSIGNMENT ( #298, #1, ( #107 ) ) ;
#95 = VECTOR ( 'NONE', #315, 1000.000000000000000 ) ;
#96 = DIRECTION ( 'NONE',  ( 0.000000000000000000, -0.000000000000000000, 1.000000000000000000 ) ) ;
#97 = ORIENTED_EDGE ( 'NONE', *, *, #112, .T. ) ;
#98 = ADVANCED_BREP_SHAPE_REPRESENTATION ( 'BK7-LPBSC-25.4-860', ( #165, #164, #223 ), #313 ) ;
#99 = LOCAL_TIME ( 11, 15, 12.00000000000000000, #201 ) ;
#100 = CARTESIAN_POINT ( 'NONE',  ( -12.69999999999999574, -12.69999999999999396, 12.69999999999999929 ) ) ;
#101 = EDGE_LOOP ( 'NONE', ( #158, #262, #260, #50 ) ) ;
#102 = DIRECTION ( 'NONE',  ( 1.000000000000000000, -2.220446049250312588E-16, 0.000000000000000000 ) ) ;
#103 = EDGE_LOOP ( 'NONE', ( #211, #280, #105 ) ) ;
#104 = EDGE_CURVE ( 'NONE', #185, #48, #274, .T. ) ;
#105 = ORIENTED_EDGE ( 'NONE', *, *, #104, .T. ) ;
#106 = DIRECTION ( 'NONE',  ( 1.000000000000000000, 0.000000000000000000, 0.000000000000000000 ) ) ;
#107 = PRODUCT_DEFINITION ( 'UNKNOWN', '', #17, #289 ) ;
#108 = CARTESIAN_POINT ( 'NONE',  ( 12.69999999999999574, 12.69999999999999574, 12.69999999999999929 ) ) ;
#109 = VECTOR ( 'NONE', #102, 1000.000000000000000 ) ;
#110 = MECHANICAL_CONTEXT ( 'NONE', #120, 'mechanical' ) ;
#111 = ADVANCED_FACE ( 'NONE', ( #70 ), #226, .F. ) ;
#112 = EDGE_CURVE ( 'NONE', #119, #132, #269, .T. ) ;
#113 = EDGE_CURVE ( 'NONE', #237, #119, #18, .T. ) ;
#114 = CARTESIAN_POINT ( 'NONE',  ( 12.69999999999999574, 12.69999999999999574, 12.69999999999999929 ) ) ;
#115 = APPROVAL_PERSON_ORGANIZATION ( #227, #141, #90 ) ;
#116 = EDGE_LOOP ( 'NONE', ( #28, #33, #168, #3 ) ) ;
#117 = PERSON_AND_ORGANIZATION ( #145, #77 ) ;
#118 = EDGE_CURVE ( 'NONE', #93, #48, #225, .T. ) ;
#119 = VERTEX_POINT ( 'NONE', #43 ) ;
#120 = APPLICATION_CONTEXT ( 'configuration controlled 3d designs of mechanical parts and assemblies' ) ;
#121 = VERTEX_POINT ( 'NONE', #149 ) ;
#122 = DATE_AND_TIME ( #296, #99 ) ;
#123 = CARTESIAN_POINT ( 'NONE',  ( 12.69999999999999929, 12.69999999999999929, -12.69999999999999929 ) ) ;
#124 = PERSON_AND_ORGANIZATION ( #145, #77 ) ;
#125 = DIRECTION ( 'NONE',  ( 0.000000000000000000, 0.000000000000000000, -1.000000000000000000 ) ) ;
#126 = ORIENTED_EDGE ( 'NONE', *, *, #213, .F. ) ;
#127 = CARTESIAN_POINT ( 'NONE',  ( -12.69999999999999751, -12.69999999999999929, -12.69999999999999929 ) ) ;
#128 = ORIENTED_EDGE ( 'NONE', *, *, #138, .F. ) ;
#129 = CARTESIAN_POINT ( 'NONE',  ( 12.69999999999999929, 12.69999999999999929, 12.69999999999999929 ) ) ;
#130 = VERTEX_POINT ( 'NONE', #155 ) ;
#131 = CARTESIAN_POINT ( 'NONE',  ( 12.69999999999999574, 12.69999999999999574, -12.69999999999999929 ) ) ;
#132 = VERTEX_POINT ( 'NONE', #47 ) ;
#133 = DIRECTION ( 'NONE',  ( 0.7071067811865475727, 0.7071067811865475727, 0.000000000000000000 ) ) ;
#134 = ADVANCED_FACE ( 'NONE', ( #238 ), #74, .F. ) ;
#135 = FACE_OUTER_BOUND ( 'NONE', #187, .T. ) ;
#136 = PRODUCT_RELATED_PRODUCT_CATEGORY ( 'detail', '', ( #263 ) ) ;
#137 = VECTOR ( 'NONE', #63, 999.9999999999998863 ) ;
#138 = EDGE_CURVE ( 'NONE', #80, #185, #256, .T. ) ;
#139 = CARTESIAN_POINT ( 'NONE',  ( 12.69999999999999929, 12.69999999999999929, 12.69999999999999929 ) ) ;
#140 = VECTOR ( 'NONE', #208, 1000.000000000000114 ) ;
#141 = APPROVAL ( #294, 'UNSPECIFIED' ) ;
#142 = DIRECTION ( 'NONE',  ( -0.7071067811865475727, 0.7071067811865475727, 0.000000000000000000 ) ) ;
#143 = DIRECTION ( 'NONE',  ( -0.000000000000000000, 1.000000000000000000, -0.000000000000000000 ) ) ;
#144 = EDGE_CURVE ( 'NONE', #121, #93, #215, .T. ) ;
#145 = PERSON ( 'UNSPECIFIED', 'UNSPECIFIED', 'UNSPECIFIED', ('UNSPECIFIED'), ('UNSPECIFIED'), ('UNSPECIFIED') ) ;
#146 = ORIENTED_EDGE ( 'NONE', *, *, #290, .F. ) ;
#147 = PERSON_AND_ORGANIZATION ( #145, #77 ) ;
#148 = ADVANCED_FACE ( 'NONE', ( #306 ), #79, .F. ) ;
#149 = CARTESIAN_POINT ( 'NONE',  ( -12.70000000000000284, 12.70000000000000284, 12.69999999999999929 ) ) ;
#150 = COORDINATED_UNIVERSAL_TIME_OFFSET ( 8, 0, .AHEAD. ) ;
#151 = EDGE_LOOP ( 'NONE', ( #55, #146, #7, #56 ) ) ;
#152 = DIRECTION ( 'NONE',  ( 0.000000000000000000, 0.000000000000000000, 1.000000000000000000 ) ) ;
#153 = EDGE_CURVE ( 'NONE', #200, #286, #31, .T. ) ;
#154 = ORIENTED_EDGE ( 'NONE', *, *, #85, .T. ) ;
#155 = CARTESIAN_POINT ( 'NONE',  ( 12.69999999999999929, -12.69999999999999929, -12.69999999999999929 ) ) ;
#156 = ORIENTED_EDGE ( 'NONE', *, *, #193, .T. ) ;
#157 = LINE ( 'NONE', #131, #60 ) ;
#158 = ORIENTED_EDGE ( 'NONE', *, *, #69, .T. ) ;
#159 =( NAMED_UNIT ( * ) PLANE_ANGLE_UNIT ( ) SI_UNIT ( $, .RADIAN. ) );
#160 = PERSON_AND_ORGANIZATION_ROLE ( 'design_owner' ) ;
#161 = CC_DESIGN_APPROVAL ( #141, ( #107 ) ) ;
#162 = PLANE ( 'NONE',  #188 ) ;
#163 = VECTOR ( 'NONE', #273, 1000.000000000000000 ) ;
#164 = MANIFOLD_SOLID_BREP ( '¾µÏ', #299 ) ;
#165 = MANIFOLD_SOLID_BREP ( 'Í¹Ì¨-À', #196 ) ;
#166 = DIRECTION ( 'NONE',  ( -0.000000000000000000, 0.000000000000000000, 1.000000000000000000 ) ) ;
#167 = LINE ( 'NONE', #266, #137 ) ;
#168 = ORIENTED_EDGE ( 'NONE', *, *, #254, .T. ) ;
#169 = AXIS2_PLACEMENT_3D ( 'NONE', #82, #32, #152 ) ;
#170 = PERSON_AND_ORGANIZATION ( #145, #77 ) ;
#171 = DIRECTION ( 'NONE',  ( 1.000000000000000000, -2.220446049250312588E-16, 0.000000000000000000 ) ) ;
#172 = LOCAL_TIME ( 11, 15, 12.00000000000000000, #25 ) ;
#173 = ORIENTED_EDGE ( 'NONE', *, *, #261, .F. ) ;
#174 = APPROVAL_ROLE ( '' ) ;
#175 = CARTESIAN_POINT ( 'NONE',  ( 12.69999999999999574, 12.69999999999999574, 12.69999999999999929 ) ) ;
#176 = DATE_AND_TIME ( #92, #57 ) ;
#177 = ADVANCED_FACE ( 'NONE', ( #282 ), #49, .F. ) ;
#178 = CARTESIAN_POINT ( 'NONE',  ( 12.69999999999999574, 12.69999999999999574, 12.69999999999999929 ) ) ;
#179 = DATE_AND_TIME ( #68, #172 ) ;
#180 = CC_DESIGN_APPROVAL ( #14, ( #9 ) ) ;
#181 = CARTESIAN_POINT ( 'NONE',  ( -12.70000000000000284, 12.70000000000000284, -12.69999999999999929 ) ) ;
#182 = ORIENTED_EDGE ( 'NONE', *, *, #22, .T. ) ;
#183 = DIRECTION ( 'NONE',  ( -0.000000000000000000, -0.000000000000000000, -1.000000000000000000 ) ) ;
#184 = AXIS2_PLACEMENT_3D ( 'NONE', #89, #166, #205 ) ;
#185 = VERTEX_POINT ( 'NONE', #181 ) ;
#186 = CARTESIAN_POINT ( 'NONE',  ( -12.69999999999999751, -12.69999999999999929, 12.69999999999999929 ) ) ;
#187 = EDGE_LOOP ( 'NONE', ( #307, #182, #64 ) ) ;
#188 = AXIS2_PLACEMENT_3D ( 'NONE', #221, #219, #220 ) ;
#189 = ORIENTED_EDGE ( 'NONE', *, *, #254, .F. ) ;
#190 = CC_DESIGN_PERSON_AND_ORGANIZATION_ASSIGNMENT ( #320, #44, ( #9 ) ) ;
#191 = CARTESIAN_POINT ( 'NONE',  ( 0.000000000000000000, 0.000000000000000000, 12.69999999999999929 ) ) ;
#192 = APPLICATION_PROTOCOL_DEFINITION ( 'international standard', 'config_control_design', 1994, #120 ) ;
#193 = EDGE_CURVE ( 'NONE', #286, #130, #51, .T. ) ;
#194 = CARTESIAN_POINT ( 'NONE',  ( -12.70000000000000284, 12.70000000000000284, 12.69999999999999929 ) ) ;
#195 = APPROVAL_PERSON_ORGANIZATION ( #147, #14, #174 ) ;
#196 = CLOSED_SHELL ( 'NONE', ( #148, #134, #177, #268, #111 ) ) ;
#197 = APPLICATION_CONTEXT ( 'configuration controlled 3d designs of mechanical parts and assemblies' ) ;
#198 = PLANE ( 'NONE',  #243 ) ;
#199 = DIRECTION ( 'NONE',  ( 0.000000000000000000, 0.000000000000000000, 1.000000000000000000 ) ) ;
#200 = VERTEX_POINT ( 'NONE', #212 ) ;
#201 = COORDINATED_UNIVERSAL_TIME_OFFSET ( 8, 0, .AHEAD. ) ;
#202 = AXIS2_PLACEMENT_3D ( 'NONE', #108, #142, #133 ) ;
#203 = VECTOR ( 'NONE', #236, 1000.000000000000114 ) ;
#204 = DATE_AND_TIME ( #251, #304 ) ;
#205 = DIRECTION ( 'NONE',  ( 1.000000000000000000, 0.000000000000000000, 0.000000000000000000 ) ) ;
#206 = APPROVAL_STATUS ( 'not_yet_approved' ) ;
#207 = EDGE_CURVE ( 'NONE', #234, #80, #253, .T. ) ;
#208 = DIRECTION ( 'NONE',  ( -0.7071067811865474617, -0.7071067811865474617, 0.000000000000000000 ) ) ;
#209 = PERSON_AND_ORGANIZATION_ROLE ( 'creator' ) ;
#210 = LOCAL_TIME ( 11, 15, 12.00000000000000000, #20 ) ;
#211 = ORIENTED_EDGE ( 'NONE', *, *, #240, .T. ) ;
#212 = CARTESIAN_POINT ( 'NONE',  ( -12.69999999999999751, -12.69999999999999929, 12.69999999999999929 ) ) ;
#213 = EDGE_CURVE ( 'NONE', #119, #200, #259, .T. ) ;
#214 = EDGE_LOOP ( 'NONE', ( #52, #308, #249 ) ) ;
#215 = LINE ( 'NONE', #178, #109 ) ;
#216 = VECTOR ( 'NONE', #30, 1000.000000000000000 ) ;
#217 = CC_DESIGN_PERSON_AND_ORGANIZATION_ASSIGNMENT ( #117, #300, ( #17 ) ) ;
#218 = ORIENTED_EDGE ( 'NONE', *, *, #10, .F. ) ;
#219 = DIRECTION ( 'NONE',  ( -0.000000000000000000, 0.000000000000000000, 1.000000000000000000 ) ) ;
#220 = DIRECTION ( 'NONE',  ( 1.000000000000000000, 0.000000000000000000, 0.000000000000000000 ) ) ;
#221 = CARTESIAN_POINT ( 'NONE',  ( 0.000000000000000000, 0.000000000000000000, 12.69999999999999929 ) ) ;
#222 = DIRECTION ( 'NONE',  ( 2.220446049250312588E-16, -1.000000000000000000, 0.000000000000000000 ) ) ;
#223 = AXIS2_PLACEMENT_3D ( 'NONE', #310, #8, #106 ) ;
#224 =( NAMED_UNIT ( * ) SI_UNIT ( $, .STERADIAN. ) SOLID_ANGLE_UNIT ( ) );
#225 = LINE ( 'NONE', #246, #257 ) ;
#226 = PLANE ( 'NONE',  #184 ) ;
#227 = PERSON_AND_ORGANIZATION ( #145, #77 ) ;
#228 = DIRECTION ( 'NONE',  ( 0.000000000000000000, 0.000000000000000000, 1.000000000000000000 ) ) ;
#229 = VECTOR ( 'NONE', #241, 1000.000000000000000 ) ;
#230 = CALENDAR_DATE ( 2020, 22, 12 ) ;
#231 = ORIENTED_EDGE ( 'NONE', *, *, #22, .F. ) ;
#232 = CARTESIAN_POINT ( 'NONE',  ( -12.69999999999999574, -12.69999999999999396, -12.69999999999999929 ) ) ;
#233 = VECTOR ( 'NONE', #143, 1000.000000000000000 ) ;
#234 = VERTEX_POINT ( 'NONE', #26 ) ;
#235 = DIRECTION ( 'NONE',  ( 1.000000000000000000, 0.000000000000000000, 0.000000000000000000 ) ) ;
#236 = DIRECTION ( 'NONE',  ( -0.7071067811865474617, -0.7071067811865474617, 0.000000000000000000 ) ) ;
#237 = VERTEX_POINT ( 'NONE', #284 ) ;
#238 = FACE_OUTER_BOUND ( 'NONE', #258, .T. ) ;
#239 = ORIENTED_EDGE ( 'NONE', *, *, #290, .T. ) ;
#240 = EDGE_CURVE ( 'NONE', #48, #80, #157, .T. ) ;
#241 = DIRECTION ( 'NONE',  ( 0.000000000000000000, 0.000000000000000000, -1.000000000000000000 ) ) ;
#242 = CARTESIAN_POINT ( 'NONE',  ( 0.000000000000000000, 0.000000000000000000, -12.69999999999999929 ) ) ;
#243 = AXIS2_PLACEMENT_3D ( 'NONE', #318, #171, #228 ) ;
#244 = ORIENTED_EDGE ( 'NONE', *, *, #153, .F. ) ;
#245 = FACE_OUTER_BOUND ( 'NONE', #301, .T. ) ;
#246 = CARTESIAN_POINT ( 'NONE',  ( 12.69999999999999574, 12.69999999999999574, 12.69999999999999929 ) ) ;
#247 = APPROVAL_PERSON_ORGANIZATION ( #72, #319, #75 ) ;
#248 = DATE_TIME_ROLE ( 'classification_date' ) ;
#249 = ORIENTED_EDGE ( 'NONE', *, *, #193, .F. ) ;
#250 = FACE_OUTER_BOUND ( 'NONE', #6, .T. ) ;
#251 = CALENDAR_DATE ( 2020, 22, 12 ) ;
#252 = DIRECTION ( 'NONE',  ( 1.000000000000000000, 0.000000000000000000, 0.000000000000000000 ) ) ;
#253 = LINE ( 'NONE', #100, #285 ) ;
#254 = EDGE_CURVE ( 'NONE', #93, #234, #167, .T. ) ;
#255 = EDGE_LOOP ( 'NONE', ( #154, #244, #126, #97 ) ) ;
#256 = LINE ( 'NONE', #232, #216 ) ;
#257 = VECTOR ( 'NONE', #41, 1000.000000000000000 ) ;
#258 = EDGE_LOOP ( 'NONE', ( #156, #218, #231, #76 ) ) ;
#259 = LINE ( 'NONE', #129, #203 ) ;
#260 = ORIENTED_EDGE ( 'NONE', *, *, #113, .F. ) ;
#261 = EDGE_CURVE ( 'NONE', #234, #121, #309, .T. ) ;
#262 = ORIENTED_EDGE ( 'NONE', *, *, #112, .F. ) ;
#263 = PRODUCT ( 'BK7-LPBSC-25.4-860', 'BK7-LPBSC-25.4-860', '', ( #110 ) ) ;
#264 = LINE ( 'NONE', #194, #229 ) ;
#265 = CC_DESIGN_PERSON_AND_ORGANIZATION_ASSIGNMENT ( #170, #160, ( #263 ) ) ;
#266 = CARTESIAN_POINT ( 'NONE',  ( 12.69999999999999574, 12.69999999999999574, 12.69999999999999929 ) ) ;
#267 = DIRECTION ( 'NONE',  ( -0.7071067811865475727, -0.7071067811865475727, 0.000000000000000000 ) ) ;
#268 = ADVANCED_FACE ( 'NONE', ( #135 ), #162, .T. ) ;
#269 = LINE ( 'NONE', #139, #283 ) ;
#270 = DIRECTION ( 'NONE',  ( -2.220446049250312588E-16, 1.000000000000000000, 0.000000000000000000 ) ) ;
#271 = VECTOR ( 'NONE', #183, 1000.000000000000000 ) ;
#272 = AXIS2_PLACEMENT_3D ( 'NONE', #78, #5, #96 ) ;
#273 = DIRECTION ( 'NONE',  ( -0.000000000000000000, -0.000000000000000000, -1.000000000000000000 ) ) ;
#274 = LINE ( 'NONE', #67, #2 ) ;
#275 = PERSON_AND_ORGANIZATION ( #145, #77 ) ;
#276 = CARTESIAN_POINT ( 'NONE',  ( 12.69999999999999929, 12.69999999999999929, 12.69999999999999929 ) ) ;
#277 = APPROVAL_STATUS ( 'not_yet_approved' ) ;
#278 = APPROVAL_DATE_TIME ( #176, #14 ) ;
#279 = DIRECTION ( 'NONE',  ( 0.7071067811865474617, 0.7071067811865474617, 0.000000000000000000 ) ) ;
#280 = ORIENTED_EDGE ( 'NONE', *, *, #138, .T. ) ;
#281 = ADVANCED_FACE ( 'NONE', ( #38 ), #314, .F. ) ;
#282 = FACE_OUTER_BOUND ( 'NONE', #101, .T. ) ;
#283 = VECTOR ( 'NONE', #15, 1000.000000000000000 ) ;
#284 = CARTESIAN_POINT ( 'NONE',  ( 12.69999999999999929, -12.69999999999999929, 12.69999999999999929 ) ) ;
#285 = VECTOR ( 'NONE', #125, 1000.000000000000000 ) ;
#286 = VERTEX_POINT ( 'NONE', #40 ) ;
#287 = FACE_OUTER_BOUND ( 'NONE', #103, .T. ) ;
#288 = ADVANCED_FACE ( 'NONE', ( #245 ), #11, .T. ) ;
#289 = DESIGN_CONTEXT ( 'detailed design', #197, 'design' ) ;
#290 = EDGE_CURVE ( 'NONE', #121, #185, #264, .T. ) ;
#291 = CC_DESIGN_PERSON_AND_ORGANIZATION_ASSIGNMENT ( #275, #88, ( #17 ) ) ;
#292 = LINE ( 'NONE', #123, #95 ) ;
#293 = DIRECTION ( 'NONE',  ( -2.220446049250312588E-16, 1.000000000000000000, 0.000000000000000000 ) ) ;
#294 = APPROVAL_STATUS ( 'not_yet_approved' ) ;
#295 = ORIENTED_EDGE ( 'NONE', *, *, #261, .T. ) ;
#296 = CALENDAR_DATE ( 2020, 22, 12 ) ;
#297 = CARTESIAN_POINT ( 'NONE',  ( 12.69999999999999929, -12.69999999999999929, 12.69999999999999929 ) ) ;
#298 = DATE_AND_TIME ( #230, #210 ) ;
#299 = CLOSED_SHELL ( 'NONE', ( #281, #59, #61, #288, #302 ) ) ;
#300 = PERSON_AND_ORGANIZATION_ROLE ( 'creator' ) ;
#301 = EDGE_LOOP ( 'NONE', ( #189, #83, #173 ) ) ;
#302 = ADVANCED_FACE ( 'NONE', ( #287 ), #34, .F. ) ;
#303 = CARTESIAN_POINT ( 'NONE',  ( 12.69999999999999929, 12.69999999999999929, 12.69999999999999929 ) ) ;
#304 = LOCAL_TIME ( 11, 15, 12.00000000000000000, #66 ) ;
#305 = CC_DESIGN_APPROVAL ( #319, ( #17 ) ) ;
#306 = FACE_OUTER_BOUND ( 'NONE', #255, .T. ) ;
#307 = ORIENTED_EDGE ( 'NONE', *, *, #213, .T. ) ;
#308 = ORIENTED_EDGE ( 'NONE', *, *, #69, .F. ) ;
#309 = LINE ( 'NONE', #58, #13 ) ;
#310 = CARTESIAN_POINT ( 'NONE',  ( 0.000000000000000000, 0.000000000000000000, 0.000000000000000000 ) ) ;
#311 = VECTOR ( 'NONE', #252, 1000.000000000000000 ) ;
#312 = APPLICATION_PROTOCOL_DEFINITION ( 'international standard', 'config_control_design', 1994, #197 ) ;
#313 =( GEOMETRIC_REPRESENTATION_CONTEXT ( 3 ) GLOBAL_UNCERTAINTY_ASSIGNED_CONTEXT ( ( #71 ) ) GLOBAL_UNIT_ASSIGNED_CONTEXT ( ( #12, #159, #224 ) ) REPRESENTATION_CONTEXT ( 'NONE', 'WORKASPACE' ) );
#314 = PLANE ( 'NONE',  #202 ) ;
#315 = DIRECTION ( 'NONE',  ( -0.000000000000000000, 1.000000000000000000, -0.000000000000000000 ) ) ;
#316 = SECURITY_CLASSIFICATION_LEVEL ( 'unclassified' ) ;
#317 = PRODUCT_DEFINITION_SHAPE ( 'NONE', 'NONE',  #107 ) ;
#318 = CARTESIAN_POINT ( 'NONE',  ( -12.69999999999999574, -12.69999999999999396, 12.69999999999999929 ) ) ;
#319 = APPROVAL ( #277, 'UNSPECIFIED' ) ;
#320 = PERSON_AND_ORGANIZATION ( #145, #77 ) ;
#321 = CARTESIAN_POINT ( 'NONE',  ( -12.69999999999999574, -12.69999999999999396, -12.69999999999999929 ) ) ;
ENDSEC;
END-ISO-10303-21;
